InícioInício  Registrar-seRegistrar-se  Conectar-seConectar-se  

Compartilhe | 
 

 Grand Chase Mission Theme - TAB

Ir em baixo 
AutorMensagem
victor.meteoro
Moderador
Moderador
avatar

Masculino
Número de Mensagens : 1548
Idade : 27
Localização : Onde você menos espera!1
Data de inscrição : 20/01/2008

MensagemAssunto: Grand Chase Mission Theme - TAB   Qua Fev 18, 2009 11:03 am

Tá aí Ghost, mals pela demora.
É que tô ensaiando outras músicas com a banda, tem show marcado já.
Qualquer duvida é só perguntar!
Wink



-----------------------------------------------

\ :Slide Ascendente
/ :Slide Descendente
~ :Vibrato
^ :Harmônico Artificial
( ) :Repetir



BASE:

e|--------------------------------------------------------------------------
B|--------------------------------------------------------------------------
G|--------------------------------------------------------------------------
D|-----------------------------------------------------------------------------------------------------------------------| ::2x
A|---------------------------------------------------------------------------------------0000000000578757--
E|-7/3--5555555555555555/3333333333333333/1111111111111111------------------



SOLO:

e|---------------------------------------------------------------
B|-2\10-12-13~ -13-12-10-12-13-12~ -13-12-10~ -12-8-12-10-8------
G|--------------------------------------------------------------------------------9~ --
D|---------------------------------------------------------------
A|---------------------------------------------------------------
E|---------------------------------------------------------------

e|---------------------------------------------------------------
B|---10-12-10-8---10-12-10-8~ -8-10-8----8-----------------------
G|-9---------------9----------------------------10---10-8------------------
D|------------------------------------------------------------10-11-10-8-^7~ --
A|---------------------------------------------------------------
E|---------------------------------------------------------------

e|------------------------8-10-12-10~ -12-10-8~ -(12-10-8)2x ---------------
B|-7\12-10----10-12--------------------------------------------------12-10-10/12~ -
G|-----------12-----------------------------------------------------------
D|----------------------------------------------------------------------
A|----------------------------------------------------------------------
E|----------------------------------------------------------------------

e|---------------------------------------------------------------
B|-(13-12-10)5x -(15-14-12)5x -14\17~~ -11-13-11-13-15-13-11~~~ -
G|---------------------------------------------------------------
D|---------------------------------------------------------------
A|---------------------------------------------------------------
E|---------------------------------------------------------------
Voltar ao Topo Ir em baixo
Ver perfil do usuário
Professor_Girafales
Moderador
Moderador
avatar

Masculino
Número de Mensagens : 2037
Idade : 25
Localização : Cidade Maravilhosa
Data de inscrição : 11/11/2007

MensagemAssunto: Re: Grand Chase Mission Theme - TAB   Qua Fev 18, 2009 3:54 pm

Porra,agora sim ta tudo claro.

_________________


Vlw Gleisowned!1



Thiago Silva Monstro!
Voltar ao Topo Ir em baixo
Ver perfil do usuário
Mister

avatar

Masculino
Número de Mensagens : 379
Data de inscrição : 30/01/2008

MensagemAssunto: Re: Grand Chase Mission Theme - TAB   Qui Fev 19, 2009 11:11 am

o layout do forum não ajuda.

mas dá pra entender.

_________________

Voltar ao Topo Ir em baixo
Ver perfil do usuário
victor.meteoro
Moderador
Moderador
avatar

Masculino
Número de Mensagens : 1548
Idade : 27
Localização : Onde você menos espera!1
Data de inscrição : 20/01/2008

MensagemAssunto: Re: Grand Chase Mission Theme - TAB   Qui Fev 19, 2009 12:58 pm

Realmente, mas eu fui editando pra tentar deixar o melhor possível.
Espero que dê pra entender.
(:

@Jorfre: Você é Namb, não entende!1
Voltar ao Topo Ir em baixo
Ver perfil do usuário
Conteúdo patrocinado




MensagemAssunto: Re: Grand Chase Mission Theme - TAB   

Voltar ao Topo Ir em baixo
 
Grand Chase Mission Theme - TAB
Voltar ao Topo 
Página 1 de 1
 Tópicos similares
-
» Grand Cherokee WJ indesejado (pelos outros...)
» [Tópico Oficial] Qual foi sua última aquisição?
» [Imagens] Grand Pope Shion - Gold Saint Campaign.
» Mais umas fotos do WJ
» AJUDEM-ME. - Bateria grand cherokee 3.1 td 99

Permissão deste fórum:Você não pode responder aos tópicos neste fórum
 :: Aulas de guitarra-
Ir para: