InícioInício  Registrar-seRegistrar-se  Conectar-seConectar-se  

Compartilhe | 
 

 Exercícios - Digitação

Ir em baixo 
AutorMensagem
victor.meteoro
Moderador
Moderador
avatar

Masculino
Número de Mensagens : 1548
Idade : 27
Localização : Onde você menos espera!1
Data de inscrição : 20/01/2008

MensagemAssunto: Exercícios - Digitação   Qui Fev 19, 2009 3:58 pm

Se Possível deixem esse tópico só pros exercícios, conversas/dúvidas no "Budega Musical".

-------------------------------

V:Palhetada pra baixo
^:Palhetada pra cima


Exercício 1 - Esse é o mais simples de todos, apenas toque as cordas alternando as palhetadas como dito acima.

Exercício 2
E-------------------------------1-2---2-1----------------------------- --
B-------------------------1-2--------------2-1------------------------ --
G-------------------1-2--------------------------2-1------------------ --
D-------------1-2--------------------------------------2-1------------ --
A-------1-2--------------------------------------------------2-1------ --
E--1-2--------------------------------------------------------------2- 1-
Exercício 3
E-------------------------------1-3---3-1----------------------------- --
B-------------------------1-3--------------3-1------------------------ --
G-------------------1-3--------------------------3-1------------------ --
D-------------1-3--------------------------------------3-1------------ --
A-------1-3--------------------------------------------------3-1------ --
E--1-3--------------------------------------------------------------3- 1-

Exercício 4
E-------------------------------1-4---4-1----------------------------- --
B-------------------------1-4--------------4-1------------------------ --
G-------------------1-4--------------------------4-1------------------ --
D-------------1-4--------------------------------------4-1------------ --
A-------1-4--------------------------------------------------4-1------ --
E--1-4--------------------------------------------------------------4- 1-


Última edição por victor.meteoro em Qui Fev 19, 2009 7:18 pm, editado 2 vez(es)
Voltar ao Topo Ir em baixo
Ver perfil do usuário
victor.meteoro
Moderador
Moderador
avatar

Masculino
Número de Mensagens : 1548
Idade : 27
Localização : Onde você menos espera!1
Data de inscrição : 20/01/2008

MensagemAssunto: Re: Exercícios - Digitação   Qui Fev 19, 2009 4:01 pm

Palhetada alternada em todos eles, na descida um para cima outra para baixo e na subida o inverso.

Ex 5:

E--------------------------------1-2-3--3-2-1------------------------- -------
B--------------------------1-2-3--------------3-2-1------------------- -------
G--------------------1-2-3--------------------------3-2-1------------- -------
D--------------1-2-3--------------------------------------3-2-1------- -------
A--------1-2-3--------------------------------------------------3-2-1- -------
E--1-2-3-------------------------------------------------------------- 3-2-1--

Ex 6:

E------------------------------------------1-2-3-4--4-3-2-1----------- -------------------------------
B----------------------------------1-2-3-4------------------4-3-2-1--- -------------------------------
G--------------------------1-2-3-4----------------------------------4- 3-2-1--------------------------
D------------------1-2-3-4-------------------------------------------- ------4-3-2-1------------------
A----------1-2-3-4---------------------------------------------------- --------------4-3-2-1----------
E--1-2-3-4------------------------------------------------------------ ----------------------4-3-2-1--

Ex 7:

E--------------------------------1-2-4--4-2-1------------------------- -------
B--------------------------1-2-4--------------4-2-1------------------- -------
G--------------------1-2-4--------------------------4-2-1------------- -------
D--------------1-2-4--------------------------------------4-2-1------- -------
A--------1-2-4--------------------------------------------------4-2-1- -------
E--1-2-4-------------------------------------------------------------- 4-2-1--

Ex 8:

E--------------------------------1-3-4--4-3-1------------------------- -------
B--------------------------1-3-4--------------4-3-1------------------- -------
G--------------------1-3-4--------------------------4-3-1------------- -------
D--------------1-3-4--------------------------------------4-3-1------- -------
A--------1-3-4--------------------------------------------------4-3-1- -------
E--1-3-4-------------------------------------------------------------- 4-3-1—
Voltar ao Topo Ir em baixo
Ver perfil do usuário
victor.meteoro
Moderador
Moderador
avatar

Masculino
Número de Mensagens : 1548
Idade : 27
Localização : Onde você menos espera!1
Data de inscrição : 20/01/2008

MensagemAssunto: Re: Exercícios - Digitação   Qui Fev 19, 2009 4:04 pm

Ex 9:

e. |--------------------------------------------------------------------|
B. |---------------------------------------------------------1-2-3-4----|
G. |-----------------------------------------1-2-3-4--------------------|
D. |-------------------------1-2-3-4------------------------------------|
A. |---------1-2-3-4----------------------------------------------------|
E. |-1-2-3-4---------1-2-3-4---------1-2-3-4---------1-2-3-4------------|

Ex 10:

e|------------------------------8-7-6-5-6-7--------------------------- -----|
B|------------------------5-6-7-------------8-7-6--------------------- -----|
G|------------------8-7-6-------------------------5-6-7--------------- -----|
D|------------5-6-7-------------------------------------8-7-6--------- -----|
A|------8-7-6-------------------------------------------------5-6-7--- -----|
E|5-6-7-------------------------------------------------------------8- 7-6-5|

Ex 11:

e|------------------------------5-6-7-8-7-6--------------------------- -----|
B|------------------------8-7-6-------------5-6-7--------------------- -----|
G|------------------5-6-7-------------------------8-7-6--------------- -----|
D|------------8-7-6-------------------------------------5-6-7--------- -----|
A|------5-6-7-------------------------------------------------8-7-6--- -----|
E|8-7-6-------------------------------------------------------------5- 6-7-8|
Voltar ao Topo Ir em baixo
Ver perfil do usuário
ByElement
Designer
Designer
avatar

Masculino
Número de Mensagens : 977
Idade : 26
Data de inscrição : 07/06/2008

MensagemAssunto: Re: Exercícios - Digitação   Sex Fev 20, 2009 5:32 pm

naosei se posso mais vo posta 1 bem facim tambem

se nao tive certo me avizem pq eu nao sei ler mtu bem tabs mais ta ai

Lá bamba ( tosco porem massa )

E. l---------------------------------------------------
B. l----------------------------------------------------
G. l------------------2-0----------------------------2-0
D. l----------0-2-3-------0-0-2-3-3-2-0----0-2-3---
A. l---0-2-3-------------------------------3-----------
E. l-3-------------------------------------------------
Voltar ao Topo Ir em baixo
Ver perfil do usuário
Conteúdo patrocinado




MensagemAssunto: Re: Exercícios - Digitação   

Voltar ao Topo Ir em baixo
 
Exercícios - Digitação
Voltar ao Topo 
Página 1 de 1

Permissão deste fórum:Você não pode responder aos tópicos neste fórum
 :: Aulas de guitarra-
Ir para: